  0
SECTION
  2
HEADER
  9
$ACADVER
  1
AC1014
  9
$ACADMAINTVER
 70
     0
  9
$DWGCODEPAGE
  3
ANSI_1252
  9
$INSBASE
 10
0.275
 20
0.0
 30
0.0
  9
$EXTMIN
 10
-0.002197
 20
0.0
 30
0.0
  9
$EXTMAX
 10
0.552241
 20
0.854874
 30
0.0
  9
$LIMMIN
 10
0.0
 20
0.0
  9
$LIMMAX
 10
1.027297
 20
0.978724
  9
$ORTHOMODE
 70
     1
  9
$REGENMODE
 70
     1
  9
$FILLMODE
 70
     1
  9
$QTEXTMODE
 70
     0
  9
$MIRRTEXT
 70
     1
  9
$DRAGMODE
 70
     2
  9
$LTSCALE
 40
1.0
  9
$OSMODE
 70
     0
  9
$ATTMODE
 70
     1
  9
$TEXTSIZE
 40
3.5
  9
$TRACEWID
 40
1.0
  9
$TEXTSTYLE
  7
STANDARD
  9
$CLAYER
  8
0
  9
$CELTYPE
  6
BYLAYER
  9
$CECOLOR
 62
   256
  9
$CELTSCALE
 40
1.0
  9
$DELOBJ
 70
     1
  9
$DISPSILH
 70
     0
  9
$DIMSCALE
 40
1.0
  9
$DIMASZ
 40
3.0
  9
$DIMEXO
 40
1.0
  9
$DIMDLI
 40
10.0
  9
$DIMRND
 40
0.0
  9
$DIMDLE
 40
0.0
  9
$DIMEXE
 40
1.0
  9
$DIMTP
 40
0.0
  9
$DIMTM
 40
0.0
  9
$DIMTXT
 40
2.5
  9
$DIMCEN
 40
1.0
  9
$DIMTSZ
 40
0.0
  9
$DIMTOL
 70
     0
  9
$DIMLIM
 70
     0
  9
$DIMTIH
 70
     0
  9
$DIMTOH
 70
     0
  9
$DIMSE1
 70
     0
  9
$DIMSE2
 70
     0
  9
$DIMTAD
 70
     1
  9
$DIMZIN
 70
     0
  9
$DIMBLK
  1

  9
$DIMASO
 70
     0
  9
$DIMSHO
 70
     0
  9
$DIMPOST
  1

  9
$DIMAPOST
  1

  9
$DIMALT
 70
     0
  9
$DIMALTD
 70
     2
  9
$DIMALTF
 40
25.4
  9
$DIMLFAC
 40
1.0
  9
$DIMTOFL
 70
     0
  9
$DIMTVP
 40
0.0
  9
$DIMTIX
 70
     0
  9
$DIMSOXD
 70
     0
  9
$DIMSAH
 70
     0
  9
$DIMBLK1
  1

  9
$DIMBLK2
  1

  9
$DIMSTYLE
  2

  9
$DIMCLRD
 70
     0
  9
$DIMCLRE
 70
     0
  9
$DIMCLRT
 70
     0
  9
$DIMTFAC
 40
1.0
  9
$DIMGAP
 40
0.09
  9
$DIMJUST
 70
     0
  9
$DIMSD1
 70
     0
  9
$DIMSD2
 70
     0
  9
$DIMTOLJ
 70
     1
  9
$DIMTZIN
 70
     0
  9
$DIMALTZ
 70
     0
  9
$DIMALTTZ
 70
     0
  9
$DIMFIT
 70
     5
  9
$DIMUPT
 70
     0
  9
$DIMUNIT
 70
     2
  9
$DIMDEC
 70
     4
  9
$DIMTDEC
 70
     4
  9
$DIMALTU
 70
     2
  9
$DIMALTTD
 70
     2
  9
$DIMTXSTY
  7
STANDARD
  9
$DIMAUNIT
 70
     0
  9
$LUNITS
 70
     2
  9
$LUPREC
 70
     4
  9
$SKETCHINC
 40
1.0
  9
$FILLETRAD
 40
200.0
  9
$AUNITS
 70
     0
  9
$AUPREC
 70
     0
  9
$MENU
  1
ACAD
  9
$ELEVATION
 40
0.0
  9
$PELEVATION
 40
0.0
  9
$THICKNESS
 40
0.0
  9
$LIMCHECK
 70
     0
  9
$BLIPMODE
 70
     1
  9
$CHAMFERA
 40
0.0
  9
$CHAMFERB
 40
0.0
  9
$CHAMFERC
 40
0.0
  9
$CHAMFERD
 40
0.0
  9
$SKPOLY
 70
     0
  9
$TDCREATE
 40
2450589.782511458
  9
$TDUPDATE
 40
2450590.441695023
  9
$TDINDWG
 40
0.0002440972
  9
$TDUSRTIMER
 40
0.0002440972
  9
$USRTIMER
 70
     1
  9
$ANGBASE
 50
0.0
  9
$ANGDIR
 70
     0
  9
$PDMODE
 70
     0
  9
$PDSIZE
 40
0.0
  9
$PLINEWID
 40
0.0
  9
$COORDS
 70
     2
  9
$SPLFRAME
 70
     0
  9
$SPLINETYPE
 70
     6
  9
$SPLINESEGS
 70
     8
  9
$ATTDIA
 70
     0
  9
$ATTREQ
 70
     1
  9
$HANDLING
 70
     1
  9
$HANDSEED
  5
54C
  9
$SURFTAB1
 70
     6
  9
$SURFTAB2
 70
     6
  9
$SURFTYPE
 70
     6
  9
$SURFU
 70
     6
  9
$SURFV
 70
     6
  9
$UCSNAME
  2

  9
$UCSORG
 10
0.0
 20
0.0
 30
0.0
  9
$UCSXDIR
 10
1.0
 20
0.0
 30
0.0
  9
$UCSYDIR
 10
0.0
 20
1.0
 30
0.0
  9
$PUCSNAME
  2

  9
$PUCSORG
 10
0.0
 20
0.0
 30
0.0
  9
$PUCSXDIR
 10
1.0
 20
0.0
 30
0.0
  9
$PUCSYDIR
 10
0.0
 20
1.0
 30
0.0
  9
$USERI1
 70
     0
  9
$USERI2
 70
     0
  9
$USERI3
 70
     0
  9
$USERI4
 70
     0
  9
$USERI5
 70
     0
  9
$USERR1
 40
0.0
  9
$USERR2
 40
0.0
  9
$USERR3
 40
0.0
  9
$USERR4
 40
0.0
  9
$USERR5
 40
0.0
  9
$WORLDVIEW
 70
     1
  9
$SHADEDGE
 70
     3
  9
$SHADEDIF
 70
    70
  9
$TILEMODE
 70
     1
  9
$MAXACTVP
 70
    16
  9
$PINSBASE
 10
0.161406
 20
50.0
 30
0.908685
  9
$PLIMCHECK
 70
     0
  9
$PEXTMIN
 10
1.000000E+20
 20
1.000000E+20
 30
1.000000E+20
  9
$PEXTMAX
 10
-1.000000E+20
 20
-1.000000E+20
 30
-1.000000E+20
  9
$PLIMMIN
 10
0.0
 20
0.0
  9
$PLIMMAX
 10
12.0
 20
9.0
  9
$UNITMODE
 70
     0
  9
$VISRETAIN
 70
     0
  9
$PLINEGEN
 70
     0
  9
$PSLTSCALE
 70
     0
  9
$TREEDEPTH
 70
  3020
  9
$PICKSTYLE
 70
     1
  9
$CMLSTYLE
  2
STANDARD
  9
$CMLJUST
 70
     0
  9
$CMLSCALE
 40
1.0
  9
$PROXYGRAPHICS
 70
     1
  9
$MEASUREMENT
 70
     0
  0
ENDSEC
  0
SECTION
  2
CLASSES
  0
CLASS
  1
DICTIONARYVAR
  2
AcDbDictionaryVar
  3
"AutoCAD"
 90
        0
280
     0
281
     0
  0
CLASS
  1
LWPOLYLINE
  2
AcDbPolyline
  3
"AutoCAD"
 90
        0
280
     0
281
     1
  0
ENDSEC
  0
SECTION
  2
TABLES
  0
TABLE
  2
VPORT
  5
52D
100
AcDbSymbolTable
 70
     2
  0
VPORT
  5
542
100
AcDbSymbolTableRecord
100
AcDbViewportTableRecord
  2
*ACTIVE
 70
     0
 10
0.0
 20
0.0
 11
1.0
 21
1.0
 12
0.830548
 22
0.900144
 13
0.0
 23
0.0
 14
0.5
 24
0.5
 15
10.0
 25
10.0
 16
0.0
 26
0.0
 36
1.0
 17
0.0
 27
0.0
 37
0.0
 40
1.996033
 41
1.387409
 42
50.0
 43
0.0
 44
0.0
 50
0.0
 51
0.0
 71
     0
 72
 20000
 73
     1
 74
     0
 75
     0
 76
     0
 77
     0
 78
     0
  0
ENDTAB
  0
TABLE
  2
LTYPE
  5
52A
100
AcDbSymbolTable
 70
     1
  0
LTYPE
  5
536
100
AcDbSymbolTableRecord
100
AcDbLinetypeTableRecord
  2
BYBLOCK
 70
     0
  3

 72
    65
 73
     0
 40
0.0
  0
LTYPE
  5
537
100
AcDbSymbolTableRecord
100
AcDbLinetypeTableRecord
  2
BYLAYER
 70
     0
  3

 72
    65
 73
     0
 40
0.0
  0
LTYPE
  5
538
100
AcDbSymbolTableRecord
100
AcDbLinetypeTableRecord
  2
CONTINUOUS
 70
     0
  3
Linea ininterrumpida
 72
    65
 73
     0
 40
0.0
  0
ENDTAB
  0
TABLE
  2
LAYER
  5
527
100
AcDbSymbolTable
 70
     1
  0
LAYER
  5
533
100
AcDbSymbolTableRecord
100
AcDbLayerTableRecord
  2
0
 70
     0
 62
     7
  6
CONTINUOUS
  0
ENDTAB
  0
TABLE
  2
STYLE
  5
528
100
AcDbSymbolTable
 70
     1
  0
STYLE
  5
534
100
AcDbSymbolTableRecord
100
AcDbTextStyleTableRecord
  2
STANDARD
 70
     0
 40
0.0
 41
1.0
 50
0.0
 71
     0
 42
3.5
  3
txt
  4

  0
ENDTAB
  0
TABLE
  2
VIEW
  5
52B
100
AcDbSymbolTable
 70
     0
  0
ENDTAB
  0
TABLE
  2
UCS
  5
52C
100
AcDbSymbolTable
 70
     0
  0
ENDTAB
  0
TABLE
  2
APPID
  5
52E
100
AcDbSymbolTable
 70
     1
  0
APPID
  5
535
100
AcDbSymbolTableRecord
100
AcDbRegAppTableRecord
  2
ACAD
 70
     0
  0
ENDTAB
  0
TABLE
  2
DIMSTYLE
  5
52F
100
AcDbSymbolTable
 70
     1
  0
DIMSTYLE
105
543
100
AcDbSymbolTableRecord
100
AcDbDimStyleTableRecord
  2

 70
     0
  3

  4

  5

  6

  7

 40
1.0
 41
0.18
 42
0.0625
 43
0.38
 44
0.18
 45
0.0
 46
0.0
 47
0.0
 48
0.0
140
0.18
141
0.09
142
0.0
143
25.4
144
1.0
145
0.0
146
1.0
147
0.09
 71
     0
 72
     0
 73
     1
 74
     1
 75
     0
 76
     0
 77
     0
 78
     0
170
     0
171
     2
172
     0
173
     0
174
     0
175
     0
176
     0
177
     0
178
     0
270
     2
271
     4
272
     4
273
     2
274
     2
340
534
275
     0
280
     0
281
     0
282
     0
283
     1
284
     0
285
     0
286
     0
287
     5
288
     0
  0
ENDTAB
  0
TABLE
  2
BLOCK_RECORD
  5
526
100
AcDbSymbolTable
 70
     0
  0
BLOCK_RECORD
  5
53C
100
AcDbSymbolTableRecord
100
AcDbBlockTableRecord
  2
*MODEL_SPACE
  0
BLOCK_RECORD
  5
539
100
AcDbSymbolTableRecord
100
AcDbBlockTableRecord
  2
*PAPER_SPACE
  0
ENDTAB
  0
ENDSEC
  0
SECTION
  2
BLOCKS
  0
BLOCK
  5
546
100
AcDbEntity
  8
0
100
AcDbBlockBegin
  2
*MODEL_SPACE
 70
     0
 10
0.0
 20
0.0
 30
0.0
  3
*MODEL_SPACE
  1

  0
ENDBLK
  5
547
100
AcDbEntity
  8
0
100
AcDbBlockEnd
  0
BLOCK
  5
544
100
AcDbEntity
 67
     1
  8
0
100
AcDbBlockBegin
  2
*PAPER_SPACE
 70
     0
 10
0.0
 20
0.0
 30
0.0
  3
*PAPER_SPACE
  1

  0
ENDBLK
  5
545
100
AcDbEntity
 67
     1
  8
0
100
AcDbBlockEnd
  0
ENDSEC
  0
SECTION
  2
ENTITIES
  0
LWPOLYLINE
  5
4CE
100
AcDbEntity
  8
0
100
AcDbPolyline
 90
       22
 70
     1
 43
0.0
 10
0.145322
 20
0.712159
 42
0.000717
 10
0.155196
 20
0.54048
 42
0.397586
 10
0.275
 20
0.427328
 42
0.397586
 10
0.394804
 20
0.54048
 42
0.000716
 10
0.404678
 20
0.712154
 42
0.009806
 10
0.416188
 20
0.71747
 42
-0.054207
 10
0.451725
 20
0.730197
 42
-0.025647
 10
0.513006
 20
0.741623
 42
0.272765
 10
0.542693
 20
0.768274
 42
0.087194
 10
0.54989
 20
0.82219
 42
0.338795
 10
0.545814
 20
0.827083
 42
0.048608
 10
0.31955
 20
0.849374
 42
0.003041
 10
0.299379
 20
0.849794
 10
0.25049
 20
0.849794
 42
0.003041
 10
0.230319
 20
0.849374
 42
0.048645
 10
0.00423
 20
0.827083
 42
0.338795
 10
0.000154
 20
0.82219
 42
0.087194
 10
0.007351
 20
0.768274
 42
0.272765
 10
0.037038
 20
0.741623
 42
-0.025647
 10
0.098319
 20
0.730197
 42
-0.054207
 10
0.133856
 20
0.71747
 42
0.008818
 10
0.144142
 20
0.712681
  0
ARC
  5
4E6
100
AcDbEntity
  8
0
100
AcDbCircle
 10
0.443225
 20
0.589333
 30
0.0
 40
0.174603
100
AcDbArc
 50
66.468825
 51
80.177278
  0
LINE
  5
4E7
100
AcDbEntity
  8
0
100
AcDbLine
 10
0.544759
 20
0.823784
 30
0.0
 11
0.299379
 21
0.823784
 31
0.0
  0
POINT
  5
4E8
100
AcDbEntity
  8
0
100
AcDbPoint
 10
0.275
 20
0.0
 30
0.0
  0
ARC
  5
4E9
100
AcDbEntity
  8
0
100
AcDbCircle
 10
0.274755
 20
1.006664
 30
0.0
 40
0.321692
100
AcDbArc
 50
251.580664
 51
256.054682
  0
LINE
  5
4EA
100
AcDbEntity
  8
0
100
AcDbLine
 10
0.005285
 20
0.823784
 30
0.0
 11
0.25049
 21
0.823784
 31
0.0
  0
LINE
  5
4EB
100
AcDbEntity
  8
0
100
AcDbLine
 10
0.143078
 20
0.767038
 30
0.0
 11
0.274935
 21
0.767038
 31
0.0
  0
ARC
  5
4EC
100
AcDbEntity
  8
0
100
AcDbCircle
 10
0.148645
 20
0.493283
 30
0.0
 40
0.279365
100
AcDbArc
 50
113.531175
 51
115.734097
  0
ARC
  5
4ED
100
AcDbEntity
  8
0
100
AcDbCircle
 10
0.142919
 20
0.380826
 30
0.0
 40
0.386212
100
AcDbArc
 50
89.976469
 51
99.822722
  0
ARC
  5
4EE
100
AcDbEntity
  8
0
100
AcDbCircle
 10
0.106819
 20
0.589333
 30
0.0
 40
0.174603
100
AcDbArc
 50
99.822722
 51
113.531175
  0
ARC
  5
4EF
100
AcDbEntity
  8
0
100
AcDbCircle
 10
0.274755
 20
1.006664
 30
0.0
 40
0.321692
100
AcDbArc
 50
246.274793
 51
248.36097
  0
ARC
  5
4F0
100
AcDbEntity
  8
0
100
AcDbCircle
 10
0.274755
 20
1.006664
 30
0.0
 40
0.321692
100
AcDbArc
 50
250.102824
 51
251.580664
  0
ARC
  5
4F1
100
AcDbEntity
  8
0
100
AcDbCircle
 10
0.274755
 20
1.006664
 30
0.0
 40
0.321692
100
AcDbArc
 50
248.36097
 51
250.102824
  0
ARC
  5
4F2
100
AcDbEntity
  8
0
100
AcDbCircle
 10
0.005285
 20
0.818546
 30
0.0
 40
0.005238
100
AcDbArc
 50
90.0
 51
178.930441
  0
ARC
  5
4F3
100
AcDbEntity
  8
0
100
AcDbCircle
 10
0.274935
 20
1.127129
 30
0.0
 40
0.439599
100
AcDbArc
 50
259.820267
 51
280.180427
  0
LINE
  5
4F4
100
AcDbEntity
  8
0
100
AcDbLine
 10
0.406966
 20
0.767038
 30
0.0
 11
0.274935
 21
0.767038
 31
0.0
  0
LINE
  5
4F5
100
AcDbEntity
  8
0
100
AcDbLine
 10
0.197228
 20
0.694453
 30
0.0
 11
0.197242
 21
0.69445
 31
0.0
  0
ARC
  5
4F6
100
AcDbEntity
  8
0
100
AcDbCircle
 10
0.407125
 20
0.380826
 30
0.0
 40
0.386212
100
AcDbArc
 50
80.177278
 51
90.023531
  0
ARC
  5
4F7
100
AcDbEntity
  8
0
100
AcDbCircle
 10
0.274935
 20
1.00823
 30
0.0
 40
0.323255
100
AcDbArc
 50
289.858606
 51
291.588364
  0
ARC
  5
4F8
100
AcDbEntity
  8
0
100
AcDbCircle
 10
0.274935
 20
1.00823
 30
0.0
 40
0.323255
100
AcDbArc
 50
283.908883
 51
288.385266
  0
ARC
  5
4F9
100
AcDbEntity
  8
0
100
AcDbCircle
 10
0.274935
 20
1.00823
 30
0.0
 40
0.323255
100
AcDbArc
 50
283.907924
 51
283.908883
  0
ARC
  5
4FA
100
AcDbEntity
  8
0
100
AcDbCircle
 10
0.274935
 20
1.00823
 30
0.0
 40
0.323255
100
AcDbArc
 50
288.385266
 51
289.855557
  0
LWPOLYLINE
  5
4FB
100
AcDbEntity
  8
0
100
AcDbPolyline
 90
        2
 70
     0
 43
0.0
 10
0.384729
 20
0.704192
 10
0.384745
 20
0.704197
 42
0.026414
  0
ARC
  5
4FF
100
AcDbEntity
  8
0
100
AcDbCircle
 10
0.274935
 20
1.00823
 30
0.0
 40
0.323255
100
AcDbArc
 50
291.588364
 51
293.663461
  0
LINE
  5
500
100
AcDbEntity
  8
0
100
AcDbLine
 10
0.25049
 20
0.823784
 30
0.0
 11
0.299379
 21
0.823784
 31
0.0
  0
ARC
  5
501
100
AcDbEntity
  8
0
100
AcDbCircle
 10
0.401399
 20
0.493283
 30
0.0
 40
0.279365
100
AcDbArc
 50
64.265903
 51
66.468825
  0
ARC
  5
502
100
AcDbEntity
  8
0
100
AcDbCircle
 10
0.544759
 20
0.818546
 30
0.0
 40
0.005238
100
AcDbArc
 50
1.069559
 51
90.0
  0
ENDSEC
  0
SECTION
  2
OBJECTS
  0
DICTIONARY
  5
531
100
AcDbDictionary
  3
ACAD_GROUP
350
532
  3
ACAD_MLINESTYLE
350
53F
  3
ACDBVARIABLEDICTIONARY
350
548
  0
DICTIONARY
  5
532
102
{ACAD_REACTORS
330
531
102
}
100
AcDbDictionary
  0
DICTIONARY
  5
53F
102
{ACAD_REACTORS
330
531
102
}
100
AcDbDictionary
  3
STANDARD
350
540
  0
DICTIONARY
  5
548
102
{ACAD_REACTORS
330
531
102
}
100
AcDbDictionary
  3
DIMADEC
350
549
  0
MLINESTYLE
  5
540
102
{ACAD_REACTORS
330
53F
102
}
100
AcDbMlineStyle
  2
STANDARD
 70
     0
  3

 62
   256
 51
90.0
 52
90.0
 71
     2
 49
0.5
 62
   256
  6
BYLAYER
 49
-0.5
 62
   256
  6
BYLAYER
  0
DICTIONARYVAR
  5
549
102
{ACAD_REACTORS
330
548
102
}
100
DictionaryVariables
280
     0
  1
0
  0
ENDSEC
  0
EOF
